Chord Gitar

Menu

Tab Guitar Linkin Park - Wretches And Kings

[edit lirik]

                              x3  let ring----------------------
||----------------------------||------------------------------------|
||----------------------------||-----11-----11-----11-----11--------|
||o-2\---2\---2\-------------o||--14-----14-----14-----14-----14----|
||o-2\---2\---2\-------------o||------------------------------------|
||--0\---0\---0\---<5>--<5>---||------------------------------------|
||--0\---0\---0\--------------||------------------------------------|
\ = dive w/whammy bar           
<#> = harmonic + octave up w/Whammy pedal



Prechorus

||----------------------------------||
||----------------------------------||
||o-2--x-x--x--x-x-----------------o||
||o-2--x-x--x--x-x-------<5>--<12>-o||
||--0--x-x--x--x-x-<3>-0------------||
||----------------------------------||

Play the last bar of the verse again.

Chorus
                            x3  let ring----------------------
||----------------------------||------------------------------------|
||----------------------------||-----11-----11-----11-----11--------|
||o-2\---2\---2\--<9---------o>