Chord Gitar

Menu

Lyric Chord Tabs Baauer – Harlem Shake

[edit lirik]
Con los terroristas
Ey Shake
Ey Shake
Ey, Ey, Ey, Ey
Shake, Ta. Ta
And do the Harlem Shake
Ey Shake, Ey

Shake, Shake
Ey
Shake, Shake, Shake
Con los terroristas
Ey, Con los terroristas
Ey, Ey

Tabs:

Con los terrorista  ca             ca               ca
||--------------------------------------------------------------------|
||--------------------------------------------------------------------|
||--------------------------------------------------------------------|
||--------------------------------------------------------------------|
||--2---------------2---------------2---------------2-----------------|
||--2-2-2-2-2-2-2-2-2-2-2-2-2-2-2-2-2-2-2-2-2-2-2-2-2-2-2-2-2-2-2-2---|
      P.M----------   P.M----------   P.M----------   P.M-------------|
                             x2
||----------------------------|---------------------------------------|
||----------------------------|---------------------------------------|
||----------------------------|---------------------------------------|
||----------------------------|------------2-3-5----------------------|
||----------------------------|-------2-3-5-----5-3-2-----------2-3-5-|
||-2-2-2--3-3-3--5-5-5--3-3-3-|-2-3-5----------------5-3-2-2-3-5------|

DO THE HARLEM SHAKE!
||---------|
||---------|
||---------|
||--/12----|
||--/12----|
||--/12----|

||---------------------------------|
||---------------------------------|
||---------------------------------|
||---------------------------------|
||-5-5-5-5-5--5-5-5-5-5--5--2-3-4--|
||-5-5-5-5-5--5-5-5-5-5--5--2-3-4--|